Home Pino Daniele Tempo di cambiare

Tempo di cambiare

1948

Testo Accordi chitarra Pino Daniele Tempo di cambiare.

testo accordi chitarra spartiti pino daniele
Pino Daniele

tabs chords lyrics

Do9                       Do9/Mib
|----------------------------------------------|
|-------------3------------------------3-------|
|-------5-----------5------------5--------5----|
|----5----(5)----------5-------5---(5)-----5---|
|-3-------------------------6------------------|
|----------------------------------------------|

Rem7                      Sib9
|---------------------------------------------|
|-------------3------------------------3------|
|-------5-----------5-------------5-----------|
|----3-----------------3-------3-----------5--|
|-5---------------------------------------3---|
|---------------------------6-----------------|
Intro: Do9  Do9/Mib  Rem7   Sib9

         Do9          Do9/Mib
C'è una strega dentro l'anima
       Rem7          Sib9
Che mi porta dritto a te
         Do9           Do9/Mib         Rem7    Sib
La sua magia e la sua pratica fanno di me
     Do9          Do9/Mib
Una preda da stanare
       Rem7          Sib9
Senza scampo e si va bene
      Do9                Do9/Mib
Non sarà la fine del mondo
         Rem7    Sib
Se ho toccato il fondo

               Do9     Do9/Mib
I need a new direction
               Rem7   Sib9
I need a new direction

C'è una strega dentro l'anima
Che  ogni giorno mangia un pò di me
Ed è fuori da ogni logica ma forse c'è
Un messaggio da capire,
c'è una pista da seguire
Noi facciamo tutti parte della stessa sorte
I need a new direction
I need a new direction

Do                  Do7+                    Do7
E' tempo di cambiare di non lasciarsi andare
             Fa
Di vivere la vita cosi
       Fam               Do
Come un angelo o un assassino
            Rem      Fa
Ognuno nel suo passato
            Rem      Fa
Ognuno col suo destino

|--------------------------------------------------|
|-------4--6--6^8-----9--8--6--4--6----8--6---4--3-|
|-5--7---------------------------------------------|
|--------------------------------------------------|
|--------------------------------------------------|
|--------------------------------------------------|

|-------------3-3^5-5----6--5-----3---5--3---------|
|-3--3--5--6-------------------6-----------6--5--3-|
|--------------------------------------------------|
|--------------------------------------------------|
|--------------------------------------------------|
|--------------------------------------------------|

 Re9                     Re9/Fa
|------------0-----------------------0-------------|
|-------3--------3--------------3---------3--------|
|----2---------------2-------2---------------2-----|
|-0-----------------------3------------------------|
|--------------------------------------------------|
|--------------------------------------------------|

 Mim7                    Do9
|------------0-----------------------0-------------|
|-------3--------3--------------3---------3--------|
|----0---------------2-------0---------------0-----|
|-2------------------------------------------------|
|-------------------------3------------------------|
|--------------------------------------------------|
Re9          Re9/Fa
C'è una strega dentro l'anima
         Mim7              Do9
Che ogni notte mi parla di te
Nel suo libro c'è una formula per me
che ho bisogno del tuo amore

|-6---5---3---1---3----|
|-3----------------------|
|-----5---3---2---3----|
|------------------------|   2a chi
|------------------------|
|------------------------|

Ho bisogno di star bene
|-5---3---1---0---1----|
|------------------------|
|-5---3---2---0---2----|
|------------------------|    2a chi
|------------------------|
|------------------------|

Io non voglio indifferenza
|-3---1---0-------0----|
|-------------3----------|
|-3---2---0-------0----|
|-------------3----------|     2a chi
|------------------------|
|------------------------|

Voglio più coscienza
I need a new direction
I need a new direction

Re                  Re7+                    Re7
E' tempo di cambiare di non lasciarsi
                              andare
             Sol
Di vivere la vita cosi
       Solm              Re
Come un angelo o un assassino
       Mim
Ognuno nel suo mondo

Do                  Do7+                    Do7
E' tempo di cambiare di non lasciarsi
                              andare
             Fa
Di vivere la vita cosi
       Fam               Do
Come un angelo o un assassino
            Rem      Fa
Ognuno nel suo passato
            Rem      Fa
Ognuno col suo destino

|------------------------------------------------|
|------4--6--6^8-----9--8--6--4--6----8--6---4--3|
|5--7--------------------------------------------|
|------------------------------------------------|
|------------------------------------------------|
|------------------------------------------------|

|------------------------------------------------|
|4---6--4--3^4^3--1--3----4--3--1----------------|
|----------------------------------3--3^5--------|
|------------------------------------------------|
|------------------------------------------------|
|------------------------------------------------|