Home Pino Daniele Je so pazzo

Je so pazzo

3793

Testo Accordi chitarra Pino Daniele Je so pazzo.

testo accordi chitarra spartiti pino daniele
Pino Daniele

tabs chords lyrics

Intro:                Mim                        DO7add7+
Mi  ||---------------------------------------------------||
Si  ||-3~---------------------------------------------0- ||
Sol ||-----0---2---3---2---0------0---2---3---2---0---   ||
Re  ||-------------------------2-------------------------||
La  ||---------------------------------------------------||
Mi  ||---------------------------------------------------||
                                 SI7
     ---------------------------------------------------||
     ---------------------------------------------------||
     -0---------------0---2---3---2------------------   ||
     --------------2-------------------4---3---2---0--  ||
     ---------------------------------------------------||
     ---------------------------------------------------||
Accordi
Mim     Do7add7+    Si7
|--0----|---3-----|----2----|
|--0----|---0-----|----0----|
|--0----|---3-----|----2----|
|--2----|---2-----|----1----|
|--2----|---3-----|----2----|
|--0----|---------|---------|

         Mim
Je so' pazzo, je so' pazzo,
        Do7add7+                   Si7
e vogl' essere chi vogl'io ascite fore da casa mia
        Mim
je so' pazzo, je so' pazzo
        Do7add7+                   Si7
ho il popolo che mi aspetta e scusate vado di fretta
        Lam7          Si7         Mim
non mi date sempre ragione, io lo so che sono un errore
        Lam7          Si7         Mim
nella vita voglio vivere almeno un giorno da leone
        Lam7          Si7         Mim
e lo Stato questa volta non mi deve condannare
        Mim           Do7add7+    Si7
pecchè so'pazzo, je so' pazzo          e oggi voglio parlare


Mim Si7 Mim Si7 Mim Si7 Do7 Si7

        Mim
Je so' pazzo, je so' pazzo
        Do7add7+                   Si7
Si s'ntosta 'a nervatura, metto a tutt' 'nfaccia o' muro
        Mim
Je so' pazzo, je so' pazzo
        Do7add7+                   Si7
E chi dice che Masaniello poi negro non sia più bello
        Lam7          Si7         Mim
E non sono menomato, sono pure diplomato
        Lam7          Si7         Mim
E la faccia nera l'ho dipinta per essere notato
        Lam7          Si7         Mim
Masaniello è cresciuto, Masaniello è turnato
        Mim           Do7add7+    Si7
Je so' pazzo, je so' pazzo ……………….Nun ce scassate 'o cazzo.