Home 883 Max Pezzali Eccoti

Eccoti

6691

Testi Accori Spartiti Chitara 883 Max Pezzali Eccoti.

testo accordi chitarra spartiti 883 Max Pezzali
883 Max Pezzali

tabs chords lyrics

E||-----------0-----------------3--2----|
B||--------3-----3-----------3--------3-|
G||-----2-----------2-----2-------------|
D||--0-----------------0----------------|
A||-------------------------------------|
E||-------------------------------------|

E||-----------0-----------------3--2----|
B||--------3-----3-----------3--------3-|
G||-----2-----------2-----2-------------|
D||--0-----------------0----------------|
A||-------------------------------------|
E||-------------------------------------|

re               si-     sol
Eccoti sai ti stavo proprio aspettando
re                si-     sol
ero qui ti aspettavo da tanto tempo
mi- la mi-  la       fa-
tanto che stavo per andarmene
sol             la sol
e invece ho fatto bene

re           la          si-
sei il primo mio pensiero che
           sol la
al mattino mi sveglia
re       la        si-
l'ultimo desiderio che
         sol la
la notte mi culla
sol    re            la
sei la ragione più profonda
      sol la
di ogni mio gesto
sol        re         la
la storia più incredibile
sol la re sol
che conosco
 re  sol
conosco

eccoti come un uragano di vita
e sei qui non so come tu sia riuscita
prendermi dal mio sogno scuotermi
e riattivarmi il cuore

sei il primo mio pensiero che
al mattino mi sveglia
l'ultimo desiderio che
la notte mi culla
sei la ragione più profonda
di ogni mio gesto
la storia più incredibile
che conosco

eccoti anche ora che non sei in casa
tu sei qui mi parlavi per ogni cosa
gli oggetti sembrano trasmettermi
l'amore nello sceglierli

eccoti finalmente sei arrivata
e sei qui non sai quanto mi sei mancata
speravo tu esistessi però non immaginavo tanto

sei il primo mio pensiero che
al mattino mi sveglia
l'ultimo desiderio che
la notte mi culla
sei la ragione più profonda
di ogni mio gesto
la storia più incredibile
che conosco
conosco conosco conosco conosco conosco